人差し指先行型のライトハンドタッピング奏法 | ギター初心者上達委員会

人差し指先行型のライトハンドタッピング奏法とは

タッピング・ライトハンド奏法の左手先行型の中でも、人差し指によるハンマリングからフレーズを弾き始める事を人差し指先行型と言ったりします。


無音状態からの人差し指のハンマリングは、音を出すのに多少の慣れが必要です。(特に高音弦)


また、ミュートに関しても多少なりとも難しくなります。

人差し指先行型ライトハンドタッピング奏法の練習フレーズ楽譜

以下は人差し指先行型のタッピング・ライトハンド奏法の練習フレーズです。



3連タッピングパターン1

   ↓   ↓   ↓   ↓
|-5-8-12-5-8-12-5-8-12-5-8-12-|
|-----------------------------|
|-----------------------------|
|-----------------------------|
|-----------------------------|
|-----------------------------|


3連タッピングパターン2

  ↓   ↓   ↓   ↓
|-5-12-8-5-12-8-5-12-8-5-12-8-|
|-----------------------------|
|-----------------------------|
|-----------------------------|
|-----------------------------|
|-----------------------------|


16分タッピングパターン1

    ↓    ↓    ↓    ↓
|-5-8-5-12-5-8-5-12-5-8-5-12-5-8-5-12-|
|-------------------------------------|
|-------------------------------------|
|-------------------------------------|
|-------------------------------------|
|-------------------------------------|


16分タッピングパターン2

  ↓    ↓    ↓    ↓
|-5-12-5-8-5-12-5-8-5-12-5-8-5-12-5-8-|
|-------------------------------------|
|-------------------------------------|
|-------------------------------------|
|-------------------------------------|
|-------------------------------------|


16分タッピングパターン3

   ↓    ↓    ↓    ↓
|-5-8-12-8-5-8-12-8-5-8-12-8-5-8-12-8-|
|-------------------------------------|
|-------------------------------------|
|-------------------------------------|
|-------------------------------------|
|-------------------------------------|


Aマイナーペンタトニックスケールを使用した基礎的なパターンを紹介しました。


他のスケールやポジションでも色々と弾いてみてください。