スキッピングを含むライトハンドタッピング奏法 | ギター初心者上達委員会

スキッピングを含むライトハンドタッピング奏法とは

タッピング・ライトハンド奏法の中にも、弦をスキッピングして行う弦飛びタッピングがあります。


主にアルペジオ的なフレーズを弾く事が多いですが、弦をスキップした時のミュートをしっかり行わないと音像がぼやけてしまいます。

スキッピングを含むライトハンドタッピング奏法の練習フレーズ楽譜

以下はスキッピングを含むライトハンドタッピング奏法の練習フレーズです。


スキッピングを含む弦飛びライトハンドタッピング奏法

メジャーセブンスのコードトーンを使用したスキッピング・弦飛びタッピング

指板上の視覚的ポジション

|-5-|---|---|---|-7-|-R-|---|---|
|---|---|---|---|---|---|---|---|
|---|-7-|-R-|---|---|---|-3-|---|
|---|---|---|---|---|---|---|---|
|-R-|---|---|---|-3-|---|---|-5-|
|---|---|---|---|---|---|---|---|


練習用フレーズ楽譜

 ↓  ↓  ↓  ↓   ↓
|-------------R-5-7-R-7-5---------|
|---------------------------------|
|-------3-7-R-------------R-3-7-R-|
|---------------------------------|
|-5-R-3---------------------------|
|---------------------------------|


マイナーセブンスのコードトーンを使用したスキッピング・弦飛びタッピング

指板上の視覚的ポジション

|-5-|---|---|-7-|---|-R-|---|---|
|---|---|---|---|---|---|---|---|
|-7-|---|-R-|---|---|-3-|---|---|
|---|---|---|---|---|---|---|---|
|-R-|---|---|-3-|---|---|---|-5-|
|---|---|---|---|---|---|---|---|

練習用フレーズ楽譜

 ↓  ↓  ↓  ↓  ↓
|-------------R-5-7-R-7-5---------|
|---------------------------------|
|-------3-7-R-------------3-R-7---|
|---------------------------------|
|-5-R-3-------------------------3-|
|---------------------------------|


ヌーノベッテンコート風の弦飛びタッピング

|-R-|---|---|---|-3-|---|---|-5-|---|---|
|---|---|---|---|---|---|---|---|---|---|
|---|-3-|---|---|-5-|---|---|---|---|-R-|
|---|---|-R-|---|-2-|---|---|---|---|-5-|
|---|---|---|---|---|---|---|---|---|---|
|---|---|---|---|---|---|---|---|---|---|

練習用フレーズ楽譜

 ↓  ↓  ↓  ↓  ↓
|-------------5-R-3-5-3-R---------|
|---------------------------------|
|-------R-3-5-------------R-5-3---|
|-5-R-2-------------------------2-|
|---------------------------------|
|---------------------------------|


このようなフレーズは、色々なコードやスケールに応用可能です。