フルタッピング | ギター初心者上達委員会

フルタッピングとは

タッピング・ライトハンド奏法の中でも、1弦〜6弦を全て使用して弾くタッピングをフルタッピングと呼んだりします。


フルタッピングは弦のミュートが非常に難しいので、その辺りを意識して練習しましょう。

フルタッピングの練習フレーズ楽譜

以下はフルタッピングの練習フレーズです。


右手先行のフルタッピング

 ↓    ↓    ↓    ↓     ↓    ↓
|-------------------------------------|----------12-5-7-8-
|-------------------------------------|-12-5-6-7----------
|----------------------------12-4-5-7-|-------------------
|-------------------12-3-5-7----------|-------------------
|----------12-3-5-7-------------------|-------------------
|-12-3-5-7----------------------------|-------------------

↓    ↓     ↓    ↓    ↓    ↓
12-5-7-8----------|-------------------------------------|
---------12-5-6-7-|-------------------------------------|
------------------|-12-4-5-7----------------------------|
------------------|----------12-3-5-7-------------------|
------------------|-------------------12-3-5-7----------|
------------------|----------------------------12-3-5-7-|


左手先行のフルタッピング

    ↓    ↓    ↓    ↓     ↓   ↓
|-------------------------------------|---------5-7-8-12-
|-------------------------------------|-5-6-8-12---------
|----------------------------4-5-7-12-|------------------
|-------------------3-5-7-12----------|------------------
|----------3-5-7-12-------------------|------------------
|-3-5-7-12----------------------------|------------------

    ↓    ↓     ↓    ↓    ↓    ↓
-5-7-8-12----------|-------------------------------------|
----------5-6-8-12-|-------------------------------------|
-------------------|-4-5-7-12----------------------------|
-------------------|----------3-5-7-12-------------------|
-------------------|-------------------3-5-7-12----------|
-------------------|----------------------------3-5-7-12-|


このフレーズは、Gミクソリディアンを使用した基礎的な練習パターンです。


他のスケールやポジションでも色々と弾いてみてください。