6弦スウィープ メジャーコード | ギター初心者上達委員会

メジャーコードの6弦スウィープ奏法の練習用楽譜

メジャーコードの6弦スウィープアルペジオには、以下のようなパターンがあります。



ルートから始まるメジャー6弦スィープ

視覚的に見た指板上のポジション

|-R-|---|---|---|-3-|---|---|-5-|
|-5-|---|---|---|---|-R-|---|---|
|---|-3-|---|---|-5-|---|---|---|
|---|---|-R-|---|---|---|---|---|
|---|---|-5-|---|---|---|---|---|
|-R-|---|---|---|-3-|---|---|---|


練習フレーズ楽譜

6弦から始まるパターン1

|---------------3-5-3-------------|
|-------------R-------R-----------|
|---------3-5-----------5-3-------|
|-------R-------------------R-----|
|-----5-----------------------5---|
|-R-3---------------------------3-|

1弦から始まるパターン1

|-5-3---------------------------3-|
|-----R-----------------------R---|
|-------5-3---------------3-5-----|
|-----------R-----------R---------|
|-------------5-------5-----------|
|---------------3-R-3-------------|


6弦から始まるパターン2

|-------------R-3-R-----------|
|-----------5-------5---------|
|---------3-----------3-------|
|-------R---------------R-----|
|-----5-------------------5---|
|-R-3-----------------------3-|

1弦から始まるパターン2

|-3-R-----------------------R-|
|-----5-------------------5---|
|-------3---------------3-----|
|---------R-----------R-------|
|-----------5-------5---------|
|-------------3-R-3-----------|


M3rdから始まるメジャー6弦スィープ

視覚的に見た指板上のポジション

|---|---|---|-3-|---|---|-5-|
|---|---|---|---|-R-|---|---|
|-3-|---|---|-5-|---|---|---|
|---|-R-|---|---|---|---|---|
|---|-5-|---|---|---|---|---|
|---|---|---|-3-|---|---|---|

練習フレーズ楽譜

6弦から始まるパターン

|-------------3-5-3-----------|
|-----------R-------R---------|
|-------3-5-----------5-3-----|
|-----R-------------------R---|
|---5-----------------------5-|
|-3---------------------------|

1弦から始まるパターン

|-5-3-----------------------3-|
|-----R-------------------R---|
|-------5-3-----------3-5-----|
|-----------R-------R---------|
|-------------5---5-----------|
|---------------3-------------|

P5thから始まるメジャー6弦スィープ

視覚的に見た指板上のポジション

|-3-|---|---|-5-|
|---|-R-|---|---|
|-5-|---|---|---|
|---|---|-3-|---|
|---|---|---|-R-|
|---|---|---|-5-|

練習フレーズ楽譜

6弦から始まるパターン

|-----------3-5-3---------|
|---------R-------R-------|
|-------5-----------5-----|
|-----3---------------3---|
|---R-------------------R-|
|-5-----------------------|

1弦から始まるパターン

|-5-3-------------------3-|
|-----R---------------R---|
|-------5-----------5-----|
|---------3-------3-------|
|-----------R---R---------|
|-------------5-----------|


スウィープ奏法は、リズムキープが難しいのでメトロノームを鳴らしてリズムキープも練習しましょう。


6弦から始まるパターンと1弦から始まるパターンの両方を練習し、何処のポジションでも(全てのメジャーコードで)弾けるようにしましょう。