5弦スウィープ マイナーコード | ギター初心者上達委員会

マイナーコードの5弦スウィープ奏法の練習用楽譜

マイナーコードの5弦スウィープアルペジオには、以下のようなパターンがあります。



5弦ルートから始まるマイナー5弦スィープ

視覚的に見た指板上のポジション1

|-3-|---|---|---|---|-5-|---|---|---|---|-R-|
|---|---|---|-R-|---|---|-3-|---|---|---|---|
|---|---|-5-|---|---|---|---|-R-|---|---|---|
|---|---|---|-3-|---|---|---|-5-|---|---|---|
|---|---|---|---|---|-R-|---|---|-3-|---|---|
|---|---|---|---|---|---|---|---|---|---|---|


練習フレーズ楽譜

5弦から始まるパターン1  1弦から始まるパターン1

|-----------5-R-5---------| |-R-5-------------------5-|
|---------3-------3-------| |-----3---------------3---|
|-------R-----------R-----| |-------R-----------R-----|
|---3-5---------------5-3-| |---------5-3---3-5-------|
|-R-----------------------| |-------------R-----------|
|-------------------------| |-------------------------|


5弦から始まるパターン2  1弦から始まるパターン2

|-----------5-R-5---------| |-R-5-------------------5-|
|---------3-------3-------| |-----3---------------3---|
|-------R-----------R-----| |-------R-----------R-----|
|-----5---------------5---| |---------5-------5-------|
|-R-3-------------------3-| |-----------3-R-3---------|
|-------------------------| |-------------------------|


5弦から始まるパターン3  1弦から始まるパターン3

|---------3-5-3-------|   |-5-3---------------3-|
|-------R-------R-----|   |-----R-----------R---|
|-----5-----------5---|   |-------5-------5-----|
|---3---------------3-|   |---------3---3-------|
|-R-------------------|   |-----------R---------|
|---------------------|   |---------------------|


m3rdから始まるマイナー5弦スィープ

視覚的に見た指板上のポジション

|-5-|---|---|---|---|-R-|
|---|-3-|---|---|---|---|
|---|---|-R-|---|---|---|
|---|---|-5-|---|---|---|
|---|---|---|-3-|---|---|
|---|---|---|---|---|---|


練習フレーズ楽譜

5弦から始まるパターン 1弦から始まるパターン

|---------5-R-5-------| |-R-5---------------5-|
|-------3-------3-----| |-----3-----------3---|
|-----R-----------R---| |-------R-------R-----|
|---5---------------5-| |---------5---5-------|
|-3-------------------| |-----------3---------|
|---------------------| |---------------------|


P5thから始まるマイナー5弦スィープ

視覚的に見た指板上のポジション

|-R-|---|---|-3-|
|-5-|---|---|---|
|-3-|---|---|---|
|---|---|-R-|---|
|---|---|-5-|---|
|---|---|---|---|


練習フレーズ楽譜

5弦から始まるパターン   1弦から始まるパターン

|---------R-3-R-----------| |-3-R---------------R-|
|-------5-------5---------| |-----5-----------5---|
|-----3-----------3-------| |-------3-------3-----|
|---R---------------R-----| |---------R---R-------|
|-5-------------------5---| |-----------5---------|
|-------------------------| |---------------------|


スウィープ奏法は、リズムキープが難しいのでメトロノームを鳴らしてリズムキープも練習しましょう。


5弦から始まるパターンと1弦から始まるパターンの両方を練習し、何処のポジションでも(全てのマイナーコードで)弾けるようにしましょう。