3弦スウィープ メジャーコード | ギター初心者上達委員会

メジャーコードの3弦スウィープ奏法の練習用楽譜

メジャーコードの3弦スウィープアルペジオには、以下のようなパターンがあります。



ルートから始まるメジャー3弦スィープ

視覚的に見た指板上のポジション

|-5-|---|---|---|---|-R-|
|---|---|-3-|---|---|---|
|---|---|-R-|---|---|---|
|---|---|---|---|---|---|
|---|---|---|---|---|---|
|---|---|---|---|---|---|

練習フレーズ楽譜

3弦から始まるパターン   1弦から始まるパターン

|-----5-R-5-------5-R-5---| |-R-5-------5-R-5-------5-|
|---3-------3---3-------3-| |-----3---3-------3---3---|
|-R-----------R-----------| |-------R-----------R-----|
|-------------------------| |-------------------------|
|-------------------------| |-------------------------|
|-------------------------| |-------------------------|


M3rdから始まるメジャー3弦スィープ

視覚的に見た指板上のポジション

|-R-|---|---|---|-3-|
|-5-|---|---|---|---|
|---|-3-|---|---|---|
|---|---|---|---|---|
|---|---|---|---|---|
|---|---|---|---|---|

練習フレーズ楽譜

3弦から始まるパターン   1弦から始まるパターン

|-----R-3-R-------R-3-R---| |-3-R-------3-R-3-------R-|
|---5-------5---5-------5-| |-----5---5-------5---5---|
|-3-----------3-----------| |-------3-----------3-----|
|-------------------------| |-------------------------|
|-------------------------| |-------------------------|
|-------------------------| |-------------------------|


P5thから始まるメジャー3弦スィープ

視覚的に見た指板上のポジション

|-3-|---|---|-5-|
|---|-R-|---|---|
|-5-|---|---|---|
|---|---|---|---|
|---|---|---|---|
|---|---|---|---|

練習フレーズ楽譜

3弦から始まるパターン   1弦から始まるパターン

|-----3-5-3-------3-5-3---| |-5-3-------5-3-5-------3-|
|---R-------R---R-------R-| |-----R---R-------R---R---|
|-5-----------5-----------| |-------5-----------5-----|
|-------------------------| |-------------------------|
|-------------------------| |-------------------------|
|-------------------------| |-------------------------|


スウィープ奏法は、リズムキープが難しいのでメトロノームを鳴らしてリズムキープも練習しましょう。


3弦から始まるパターンと1弦から始まるパターンの両方を練習し、何処のポジションでも(全てのメジャーコードで)弾けるようにしましょう。