2弦スウィープ マイナーコード | ギター初心者上達委員会

マイナーコードの2弦スウィープ奏法の練習用楽譜

マイナーコードの2弦スウィープアルペジオには、以下のようなパターンがあります。



2弦ルートから始まるマイナー2弦スィープ

視覚的に見た指板上のポジション

|-3-|---|---|---|-5-|---|
|---|---|-R-|---|---|---|
|---|---|---|---|---|---|
|---|---|---|---|---|---|
|---|---|---|---|---|---|
|---|---|---|---|---|---|

練習フレーズ楽譜

2弦から始まるパターン   1弦から始まるパターン

|---3-5-3---3-5-3---3-5-3-| |-5-3---3-5-3---3-5-3---3-|
|-R-------R-------R-------| |-----R-------R-------R---|
|-------------------------| |-------------------------|
|-------------------------| |-------------------------|
|-------------------------| |-------------------------|
|-------------------------| |-------------------------|


2弦m3rdから始まるマイナー2弦スィープ

視覚的に見た指板上のポジション

|-5-|---|---|---|---|-R-|
|---|-3-|---|---|---|---|
|---|---|---|---|---|---|
|---|---|---|---|---|---|
|---|---|---|---|---|---|
|---|---|---|---|---|---|

練習フレーズ楽譜

2弦から始まるパターン   1弦から始まるパターン

|---5-R-5---5-R-5---5-R-5-| |-R-5---5-R-5---5-R-5---5-|
|-3-------3-------3-------| |-----3-------3-------3---|
|-------------------------| |-------------------------|
|-------------------------| |-------------------------|
|-------------------------| |-------------------------|
|-------------------------| |-------------------------|



P5thから始まるマイナー2弦スィープ

視覚的に見た指板上のポジション

|-R-|---|---|-3-|
|-5-|---|---|---|
|---|---|---|---|
|---|---|---|---|
|---|---|---|---|
|---|---|---|---|

練習フレーズ楽譜

2弦から始まるパターン   1弦から始まるパターン

|---R-3-R---R-3-R---R-3-R-| |-3-R---R-3-R---R-3-R---R-|
|-5-------5-------5-------| |-----5-------5-------5---|
|-------------------------| |-------------------------|
|-------------------------| |-------------------------|
|-------------------------| |-------------------------|
|-------------------------| |-------------------------|


スウィープ奏法は、リズムキープが難しいのでメトロノームを鳴らしてリズムキープも練習しましょう。


2弦から始まるパターンと1弦から始まるパターンの両方を練習し、何処のポジションでも(全てのマイナーコードで)弾けるようにしましょう。