ペンタトニックスケール 5ポジション | ギター初心者上達委員会

ペンタトニックスケールの5ポジションとは

ペンタトニックスケールの5つのポジションについて紹介します。


ペンタトニックは、5つの音から構成されるスケールなので、各構成音から始まる5つのボックスポジションを覚えれば指板上のあらゆるところでフレージング出来ます。


ここでは、マイナーペンタトニック(ブルースペンタトニック)とメジャーペンタトニックの5ポジションを紹介します。

各音から始まるボックスポジションによるペンタトニックスケールの弾き方

5つのメジャーコードフォームに対応した、メジャースケール(ダイアトニックスケール)のボックスポジションを紹介します。



第1音(ルート)から始まるペンタトニックスケール

マイナーペンタトニック  メジャーペンタトニック
ブルースペンタトニック

|-R-|---|---|-3-|     |---|-R-|---|-2-|
|-5-|---|---|-7-|     |---|-5-|---|-6-|
|-3-|---|-4-|---|     |-2-|---|-3-|---|
|-7-|---|-R-|---|     |-6-|---|---|-R-|
|-4-|---|-5-|---|     |-3-|---|---|-5-|
|-R-|---|---|-3-|     |---|-R-|---|-2-|


第1音から始まるマイナーペンタトニックスケール練習 楽譜

|---------------------R-3-3-R-----|-----------------|
|-----------------5-7---------7-5-|-----------------|
|-------------3-4-----------------|-4-3-------------|
|---------7-R---------------------|-----7-R---------|
|-----4-5-------------------------|---------4-5-----|
|-R-3-----------------------------|-------------R-3-|

第1音から始まるメジャーペンタトニックスケール練習 楽譜

|---------------------R-2-2-R-----|-----------------|
|-----------------5-6---------5-6-|-----------------|
|-------------2-3-----------------|-3-2-------------|
|---------6-R---------------------|-----R-6---------|
|-----3-5-------------------------|---------3-5-----|
|-R-2-----------------------------|-------------2-R-|


第2音から始まるペンタトニックスケール
マイナーではm3rd メジャーではM2nd

マイナーペンタトニック  メジャーペンタトニック
ブルースペンタトニック

|---|-3-|---|-4-|     |---|-2-|---|-3-|---|
|---|-7-|---|-R-|     |---|-6-|---|---|-R-|
|-4-|---|-5-|---|     |-3-|---|---|-5-|---|
|-R-|---|---|-3-|     |---|-R-|---|-2-|---|
|-5-|---|---|-7-|     |---|-5-|---|-6-|---|
|---|-3-|---|-4-|     |---|-2-|---|-3-|---|


第2音から始まるマイナーペンタトニックスケール練習 楽譜

|---------------------3-4-4-3-----|-----------------|
|-----------------7-R---------R-7-|-----------------|
|-------------4-5-----------------|-5-4-------------|
|---------R-3---------------------|-----3-R---------|
|-----5-7-------------------------|---------7-5-----|
|-3-4-----------------------------|-------------4-3-|

第2音から始まるメジャーペンタトニックスケール練習 楽譜

|---------------------2-3-3-2-----|-----------------|
|-----------------6-R---------R-6-|-----------------|
|-------------3-5-----------------|-5-3-------------|
|---------R-2---------------------|-----2-R---------|
|-----5-6-------------------------|---------6-5-----|
|-2-3-----------------------------|-------------3-2-|


第3音から始まるペンタトニックスケール
マイナーではP4th メジャーではM3rd

マイナーペンタトニック  メジャーペンタトニック
ブルースペンタトニック

|---|-4-|---|-5-|---|   |-3-|---|---|-5-|
|---|-R-|---|---|-3-|   |---|-R-|---|-2-|
|-5-|---|---|-7-|---|   |-5-|---|-6-|---|
|---|-3-|---|-4-|---|   |-2-|---|-3-|---|
|---|-7-|---|-R-|---|   |-6-|---|---|-R-|
|---|-4-|---|-5-|---|   |-3-|---|---|-5-|


第3音から始まるマイナーペンタトニックスケール練習 楽譜

|---------------------4-5-5-4-----|-----------------|
|-----------------R-3---------3-R-|-----------------|
|-------------5-7-----------------|-7-5-------------|
|---------3-4---------------------|-----4-3---------|
|-----7-R-------------------------|---------R-7-----|
|-4-5-----------------------------|-------------5-4-|

第3音から始まるメジャーペンタトニックスケール練習 楽譜

|---------------------3-5-5-3-----|-----------------|
|-----------------R-2---------2-R-|-----------------|
|-------------5-6-----------------|-6-5-------------|
|---------2-3---------------------|-----3-2---------|
|-----6-R-------------------------|---------R-6-----|
|-3-5-----------------------------|-------------3-5-|


第4音(P5th)から始まるペンタトニックスケール

マイナーペンタトニック  メジャーペンタトニック
ブルースペンタトニック

|-5-|---|---|-7-|     |---|-5-|---|-6-|
|---|-3-|---|-4-|     |---|-2-|---|-3-|
|-7-|---|-R-|---|     |-6-|---|---|-R-|
|-4-|---|-5-|---|     |-3-|---|---|-5-|
|-R-|---|---|-3-|     |---|-R-|---|-2-|
|-5-|---|---|-7-|     |---|-5-|---|-6-|


第4音から始まるマイナーペンタトニックスケール練習 楽譜

|---------------------5-7-7-5-----|-----------------|
|-----------------3-4---------4-3-|-----------------|
|-------------7-R-----------------|-R-7-------------|
|---------4-5---------------------|-----5-4---------|
|-----R-3-------------------------|---------3-R-----|
|-5-7-----------------------------|-------------7-5-|

第4音から始まるメジャーペンタトニックスケール練習 楽譜

|---------------------5-6-6-5-----|-----------------|
|-----------------2-3---------3-2-|-----------------|
|-------------6-R-----------------|-R-6-------------|
|---------3-5---------------------|-----5-3---------|
|-----R-2-------------------------|---------2-R-----|
|-5-6-----------------------------|-------------6-5-|


第5音から始まるペンタトニックスケール
マイナーではm7th メジャーではM6th

マイナーペンタトニック  メジャーペンタトニック
ブルースペンタトニック

|---|-7-|---|-R-|     |-6-|---|---|-R-|
|---|-4-|---|-5-|     |-3-|---|---|-5-|
|-R-|---|---|-3-|     |-R-|---|-2-|---|
|-5-|---|---|-7-|     |-5-|---|-6-|---|
|---|-3-|---|-4-|     |-2-|---|-3-|---|
|---|-7-|---|-R-|     |-6-|---|---|-R-|


第5音から始まるマイナーペンタトニックスケール練習 楽譜

|---------------------7-R-R-7-----|-----------------|
|-----------------4-5---------5-4-|-----------------|
|-------------R-3-----------------|-3-R-------------|
|---------5-7---------------------|-----7-5---------|
|-----3-4-------------------------|---------4-3-----|
|-7-R-----------------------------|-------------R-7-|

第5音から始まるメジャーペンタトニックスケール練習 楽譜

|---------------------6-R-R-6-----|-----------------|
|-----------------3-5---------5-3-|-----------------|
|-------------R-2-----------------|-2-R-------------|
|---------5-6---------------------|-----6-5---------|
|-----2-3-------------------------|---------3-2-----|
|-6-R-----------------------------|-------------6-R-|


ポジション全体を指板上で視覚的に見るとこうなります。

マイナー(ブルース)ペンタトニックスケール

|-R-|---|---|-3-|---|-4-|---|-5-|---|---|-7-|---|
|-5-|---|---|-7-|---|-R-|---|---|-3-|---|-4-|---|
|-3-|---|-4-|---|-5-|---|---|-7-|---|-R-|---|---|
|-7-|---|-R-|---|---|-3-|---|-4-|---|-5-|---|---|
|-4-|---|-5-|---|---|-7-|---|-R-|---|---|-3-|---|
|-R-|---|---|-3-|---|-4-|---|-5-|---|---|-7-|---|

|-4-|---|-5-|---|---|-7-|---|-R-|---|---|-3-|---|
|-R-|---|---|-3-|---|-4-|---|-5-|---|---|-7-|---|
|---|---|-7-|---|-R-|---|---|-3-|---|-4-|---|-5-|
|-3-|---|-4-|---|-5-|---|---|-7-|---|-R-|---|---|
|-7-|---|-R-|---|---|-3-|---|-4-|---|-5-|---|---|
|-4-|---|-5-|---|---|-7-|---|-R-|---|---|-3-|---|


メジャーペンタトニックスケール

|-R-|---|-2-|---|-3-|---|---|-5-|---|-6-|---|---|
|-5-|---|-6-|---|---|-R-|---|-2-|---|-3-|---|---|
|---|-3-|---|---|-5-|---|-6-|---|---|-R-|---|-2-|
|---|---|-R-|---|-2-|---|-3-|---|---|-5-|---|-6-|
|---|---|-5-|---|-6-|---|---|-R-|---|-2-|---|-3-|
|-R-|---|-2-|---|-3-|---|---|-5-|---|-6-|---|---|

|---|-5-|---|-6-|---|---|-R-|---|-2-|---|-3-|---|
|---|-2-|---|-3-|---|---|-5-|---|-6-|---|---|-R-|
|-6-|---|---|-R-|---|-2-|---|-3-|---|---|-5-|---|
|-3-|---|---|-5-|---|-6-|---|---|-R-|---|-2-|---|
|---|-R-|---|-2-|---|-3-|---|---|-5-|---|-6-|---|
|---|-5-|---|-6-|---|---|-R-|---|-2-|---|-3-|---|

弾いている音が何番目(何度)の音なのかを意識して練習しましょう。


メトロノームを使用し、リズムキープしながら全てのポジションで弾けるように練習しましょう。