メジャースケール ボックス5ポジション | ギター初心者上達委員会

メジャースケールのボックスポジションとは

メジャースケール(ダイアトニックスケール)の5つのボックスポジションについて紹介します。


ボックスポジションとは、ネックを握った左手のポジション(親指の位置の)移動を殆ど行わないで一つのポジションで弾く事の出来る範囲の事です。


ボックスポジションは、弾く音がギターネック上の4〜5フレット以内に収まっており、1つの弦に対して2音〜3音が基本です。


ブルースギターなど、チョーキングやビブラートを多用する場合にはボックスポジションの方が弾きやすいと思います。


逆に、左手のポジションが動くフォームをリニアポジション等と言います。1弦に対して3音が基本で、スピーディーなフレーズや音程の幅が広いフレーズを弾く事に適しています。


メジャースケール(ダイアトニックスケール)は、5つのローコードフォーム(C・D・F・G・A)に対応したボックスポジションで弾けるように覚えるのが基本です。

5つのボックスポジションによるメジャースケールの弾き方

5つのメジャーコードフォームに対応した、メジャースケール(ダイアトニックスケール)のボックスポジションを紹介します。



ローCのフォームとボックスポジションのスケール

コードフォーム    メジャースケール

|-3-|---|---|---|  |-3-|-4-|---|-5-|
|---|-R-|---|---|  |-7-|-R-|---|-2-|
|-5-|---|---|---|  |-5-|---|-6-|---|
|---|---|-3-|---|  |-2-|---|-3-|-4-|
|---|---|---|-R-|  |-6-|---|-7-|-R-|
|---|---|---|---|  |-3-|-4-|---|-5-|


ローCポジションのスケール練習 楽譜

|-------------------3-4-5-4-3-----|
|-------------7-R-2-----------2-R-|
|---------5-6---------------------|
|---2-3-4-------------------------|
|-R-------------------------------|
|---------------------------------|

---------------------------------|
-7-------------------------------|
---6-5---------------------------|
-------4-3-2---------------------|
-------------R-7-6-----------6-7-|
-------------------5-4-3-4-5-----|


ローDのフォームとボックスポジションのスケール

コードフォーム    メジャースケール

|---|---|-3-|---|  |-2-|---|-3-|-4-|---|
|---|---|---|-R-|  |-6-|---|-7-|-R-|---|
|---|---|-5-|---|  |-4-|---|-5-|---|---|
|-R-|---|---|---|  |-R-|---|-2-|---|-3-|
|---|---|---|---|  |-5-|---|-6-|---|-7-|
|---|---|---|---|  |-2-|---|-3-|-4-|---|


ローDポジションのスケール練習 楽譜

|-----------------2-3-4-3-2-------|
|-----------6-7-R-----------R-7-6-|
|-------4-5-----------------------|
|-R-2-3---------------------------|
|---------------------------------|
|---------------------------------|

---------------------------------|
---------------------------------|
-5-4-----------------------------|
-----3-2-R-----------------------|
-----------7-6-5-----------5-6-7-|
-----------------4-3-2-3-4-------|


ローFのフォームとボックスポジションのスケール

コードフォーム    メジャースケール

|---|-R-|---|---|  |-7-|-R-|---|-2-|
|---|-5-|---|---|  |-4-|-5-|---|-6-|
|---|---|-3-|---|  |---|-2-|---|-3-|
|---|---|---|-R-|  |-6-|---|-7-|-R-|
|---|---|---|-5-|  |-3-|-4-|---|-5-|
|---|-R-|---|---|  |-7-|-R-|---|-2-|


ローFポジションのスケール練習 楽譜

|---------------------------7-R-2-|
|---------------------4-5-6-------|
|-----------------2-3-------------|
|-----------6-7-R-----------------|
|-----3-4-5-----------------------|
|-R-2-----------------------------|

-R-7-----------------------------|
-----6-5-4-----------------------|
-----------3-2-------------------|
---------------R-7-6-------------|
---------------------5-4-3-------|
---------------------------2-R-7-|


ローGのフォームとボックスポジションのスケール

コードフォーム    メジャースケール

|---|---|---|-R-|  |-6-|---|-7-|-R-|---|
|-3-|---|---|---|  |-3-|-4-|---|-5-|---|
|-R-|---|---|---|  |-R-|---|-2-|---|---|
|-5-|---|---|---|  |-5-|---|-6-|---|-7-|
|---|---|-3-|---|  |-2-|---|-3-|-4-|---|
|---|---|---|-R-|  |-6-|---|-7-|-R-|---|


ローGポジションのスケール練習 楽譜

|-------------------------6-7-R-7-|
|-------------------3-4-5---------|
|---------------R-2---------------|
|---------5-6-7-------------------|
|---2-3-4-------------------------|
|-R-------------------------------|

-R-7-6---------------------------|-----
-------5-4-3---------------------|-----
-------------2-R-----------------|-----
-----------------7-6-5-----------|-----
-----------------------4-3-2-----|-----
-----------------------------R-7-|-6-7-


ローAのフォームとボックスポジションのスケール

コードフォーム    メジャースケール

|---|-5-|---|---|  |-4-|---|-5-|---|-6-|
|---|---|---|-3-|  |---|---|-2-|---|-3-|
|---|---|---|-R-|  |---|-6-|---|-7-|-R-|
|---|---|---|-5-|  |---|-3-|-4-|---|-5-|
|---|-R-|---|---|  |---|-7-|-R-|---|-2-|
|---|---|---|---|  |-4-|---|-5-|---|-6-|


ローAポジションのスケール練習 楽譜

|---------------------4-5-6-5-4---|
|-----------------2-3-----------3-|
|-----------6-7-R-----------------|
|-----3-4-5-----------------------|
|-R-2-----------------------------|
|---------------------------------|

---------------------------------|
-2-------------------------------|
---R-7-6-------------------------|
---------5-4-3-------------------|
---------------2-R-7-----------7-|
---------------------6-5-4-5-6---|


弾いているポジションのローコードフォームをイメージし、コードトーンの位置を意識しながら練習しましょう。


メトロノームを使用し、リズムキープしながら全てのポジションで弾けるように練習しましょう。