ダイアトニックスケール リニア7ポジション | ギター初心者上達委員会

ダイアトニックスケールのリニアポジションとは

メジャースケール(ダイアトニックスケール)の7つのリニアポジションについて紹介します。


リニアポジションとは、指板上をリニアに横移動する事からこのように呼ばれ現代音楽のスピード感あるフレージングや音域の広いフレージングを弾く際に有効です。


リニアポジションは、1弦に対して3音の組み合わせが基本です。ダイアトニックスケール構成音の各音から始まるリニアポジションを覚えましょう。

7つのリニアポジションによるダイアトニックスケールの弾き方

7つの各構成音から始まるダイアトニックスケールのリニアポジションを紹介します。



第1音から始まるダイアトニックスケールリニアポジション

アイオニアンスケールのポジションとも言えます。

|---|---|-2-|---|-3-|-4-|
|---|---|-6-|---|-7-|-R-|
|---|-3-|-4-|---|-5-|---|
|---|-7-|-R-|---|-2-|---|
|-4-|---|-5-|---|-6-|---|
|-R-|---|-2-|---|-3-|---|


第1音から始まるダイアトニックスケール練習 楽譜

|-------------------------------2-|
|-------------------------6-7-R---|
|-------------------3-4-5---------|
|-------------7-R-2---------------|
|-------4-5-6---------------------|
|-R-2-3---------------------------|

-3-4-3-2-------------------------|-----
---------R-7-6-------------------|-----
---------------5-4-3-------------|-----
---------------------2-R-7-------|-----
---------------------------6-5-4-|-----
---------------------------------|-3-2-


第2音から始まるダイアトニックスケールリニアポジション

ドリアンスケールのポジションとも言えます。

|---|---|-3-|-4-|---|-5-|
|---|---|-7-|-R-|---|-2-|
|-4-|---|-5-|---|-6-|---|
|-R-|---|-2-|---|-3-|---|
|-5-|---|-6-|---|-7-|---|
|-2-|---|-3-|-4-|---|---|


第2音から始まるダイアトニックスケール練習 楽譜

|-------------------------------3-|
|-------------------------7-R-2---|
|-------------------4-5-6---------|
|-------------R-2-3---------------|
|-------5-6-7---------------------|
|-2-3-4---------------------------|

-4-5-4-3-------------------------|-----
---------2-R-7-------------------|-----
---------------6-5-4-------------|-----
---------------------3-2-R-------|-----
---------------------------7-6-5-|-----
---------------------------------|-4-3-


第3音から始まるダイアトニックスケールリニアポジション

フリジアンスケールのポジションとも言えます。

|---|-4-|---|-5-|---|-6-|
|---|-R-|---|-2-|---|-3-|
|---|-5-|---|-6-|---|-7-|
|-2-|---|-3-|-4-|---|---|
|-6-|---|-7-|-R-|---|---|
|-3-|-4-|---|-5-|---|---|


第3音から始まるダイアトニックスケール練習 楽譜

|-------------------------------4-|
|-------------------------R-2-3---|
|-------------------5-6-7---------|
|-------------2-3-4---------------|
|-------6-7-R---------------------|
|-3-4-5---------------------------|

-5-6-5-4-------------------------|-----
---------3-2-R-------------------|-----
---------------7-6-5-------------|-----
---------------------4-3-2-------|-----
---------------------------R-7-6-|-----
---------------------------------|-5-4-


第4音から始まるダイアトニックスケールリニアポジション

リディアンスケールのポジションとも言えます。

|---|---|-5-|---|-6-|---|-7-|
|---|---|-2-|---|-3-|-4-|---|
|---|-6-|---|-7-|-R-|---|---|
|---|-3-|-4-|---|-5-|---|---|
|---|-7-|-R-|---|-2-|---|---|
|-4-|---|-5-|---|-6-|---|---|


第4音から始まるダイアトニックスケール練習 楽譜

|-------------------------------5-|
|-------------------------2-3-4---|
|-------------------6-7-R---------|
|-------------3-4-5---------------|
|-------7-R-2---------------------|
|-4-5-6---------------------------|

-6-7-6-5-------------------------|-----
---------4-3-2-------------------|-----
---------------R-7-6-------------|-----
---------------------5-4-3-------|-----
---------------------------2-R-7-|-----
---------------------------------|-6-5-


第5音から始まるダイアトニックスケールリニアポジション

ミクソリディアンスケールのポジションとも言えます。

|---|---|-6-|---|-7-|-R-|
|---|---|-3-|-4-|---|-5-|
|---|-7-|-R-|---|-2-|---|
|-4-|---|-5-|---|-6-|---|
|-R-|---|-2-|---|-3-|---|
|-5-|---|-6-|---|-7-|---|


第5音から始まるダイアトニックスケール練習 楽譜

|-------------------------------6-|
|-------------------------3-4-5---|
|-------------------7-R-2---------|
|-------------4-5-6---------------|
|-------R-2-3---------------------|
|-5-6-7---------------------------|

-7-R-7-6-------------------------|-----
---------5-4-3-------------------|-----
---------------2-R-7-------------|-----
---------------------6-5-4-------|-----
---------------------------3-2-R-|-----
---------------------------------|-7-6-


第6音から始まるダイアトニックスケールリニアポジション

エオリアンスケールのポジションとも言えます。

|---|---|-7-|-R-|---|-2-|
|---|---|-4-|-5-|---|-6-|
|-R-|---|-2-|---|-3-|---|
|-5-|---|-6-|---|-7-|---|
|-2-|---|-3-|-4-|---|---|
|-6-|---|-7-|-R-|---|---|


第6音から始まるダイアトニックスケール練習 楽譜

|-------------------------------7-|
|-------------------------4-5-6---|
|-------------------R-2-3---------|
|-------------5-6-7---------------|
|-------2-3-4---------------------|
|-6-7-R---------------------------|

-R-2-R-7-------------------------|-----
---------6-5-4-------------------|-----
---------------3-2-R-------------|-----
---------------------7-6-5-------|-----
---------------------------4-3-2-|-----
---------------------------------|-R-7-


第7音から始まるダイアトニックスケールリニアポジション

ロクリアンスケールのポジションとも言えます。

|---|-R-|---|-2-|---|-3-|---|
|---|-5-|---|-6-|---|-7-|---|
|-2-|---|-3-|-4-|---|---|---|
|-6-|---|-7-|-R-|---|---|---|
|-3-|-4-|---|-5-|---|---|---|
|-7-|-R-|---|-2-|---|---|---|


第7音から始まるダイアトニックスケール練習 楽譜

|-------------------------------R-|
|-------------------------5-6-7---|
|-------------------2-3-4---------|
|-------------6-7-R---------------|
|-------3-4-5---------------------|
|-7-R-2---------------------------|

-2-3-2-R-------------------------|-----
---------7-6-5-------------------|-----
---------------4-3-2-------------|-----
---------------------R-7-6-------|-----
---------------------------5-4-3-|-----
---------------------------------|-2-R-



ポジション全体を指板上で視覚的に見るとこうなります。


|-R-|---|-2-|---|-3-|-4-|---|-5-|---|-6-|---|-7-|
|-5-|---|-6-|---|-7-|-R-|---|-2-|---|-3-|-4-|---|
|---|-3-|-4-|---|-5-|---|-6-|---|-7-|-R-|---|-2-|
|---|-7-|-R-|---|-2-|---|-3-|-4-|---|-5-|---|-6-|
|-4-|---|-5-|---|-6-|---|-7-|-R-|---|-2-|---|-3-|
|-R-|---|-2-|---|-3-|-4-|---|-5-|---|-6-|---|-7-|


|-5-|---|-6-|---|-7-|-R-|---|-2-|---|-3-|-4-|---|
|-2-|---|-3-|-4-|---|-5-|---|-6-|---|-7-|-R-|---|
|---|-7-|-R-|---|-2-|---|-3-|-4-|---|-5-|---|-6-|
|-4-|---|-5-|---|-6-|---|-7-|-R-|---|-2-|---|-3-|
|-R-|---|-2-|---|-3-|-4-|---|-5-|---|-6-|---|-7-|
|-5-|---|-6-|---|-7-|-R-|---|-2-|---|-3-|-4-|---|


弾いているポジションが何度の音(第何音)から始まるポジションかを意識することで、楽曲の演奏中にも様々なポジションで即座にソロやオブリを演奏出来るようになります。


メトロノームを使用し、リズムキープしながら全てのキーで弾けるように練習しましょう。