7度音程のスケール練習 メジャースケール | ギター初心者上達委員会

7度音程のスケール練習法

メジャースケールを使用した。7度音程のインターバルを弾くスケール練習フレーズです。


ギターでの7度音程の指使いと、長7度と短7度による運指の違いを覚えましょう。


7度のインターバルを弾く練習法を行うことでギター以外に音程を聴き取る耳も上達します。

7度インターバルの運指を覚えるスケール練習フレーズ

Cメジャースケールを7度音程で弾く練習フレーズのタブ譜です。



|---------------------------5---7-|---8---10----12----13-
|---------------5---6---8---------|----------------------
|-------5---7-----------------5---|-7---9----10----12----
|---9-------------5---7---9-------|----------------------
|-----5---7---8-------------------|----------------------
|-8-------------------------------|----------------------


----15----17-8---7---|-5-------------------------------|
---------------------|-----8---6---5-------------------|
-14----16------7---5-|-----------------7---5-----------|
---------------------|---9---7---5-------------9---7---|
---------------------|---------------8---7---5---------|
---------------------|---------------------------8---7-|


-----------------|
-----------------|
-----------------|
-5---------------|
-----8---7---5---|
---5---3---1---0-|


7度音程の上昇と下降が逆になったパターンも紹介します。



|-------------------------5---7---|-8---10---12----13----
|-------------5---6---8-----------|----------------------
|-----5---7---------------------5-|---7----9----10----12-
|-9-----------------5---7---9-----|----------------------
|-------5---7---8-----------------|----------------------
|---8-----------------------------|----------------------


-15----17------8---7-|------------------------------|
---------------------|---10---8---6-----------------|
----14----16-7---5---|----------------8---7---5-----|
---------------------|-9----7---5-----------------9-|
---------------------|--------------8---6---5-------|
---------------------|--------------------------8---|


-----------------|
-----------------|
-----------------|
---7---5---3---1-|
-----------------|
-7---5---3---1---|


メトロノームを鳴らすことを忘れずに


ハーモニックマイナースケールやメロディックマイナースケール等、他のスケールでも練習してみましょう。


機会が在ったらそちらのフレーズも紹介したいと思います。