6度音程のスケール練習 メジャースケール | ギター初心者上達委員会

6度音程のスケール練習法

メジャースケールを使用した。6度音程のインターバルを弾くスケール練習フレーズです。


ギターでの6度音程の指使いと、長6度と短6度による運指の違いを覚えましょう。


6度のインターバルを弾く練習法を行うことでギター以外に音程を聴き取る耳も上達します。


6度はハモリで使用されることもあります。


6度音程を覚える事で、コーラスアレンジの幅も広がると思います。

6度インターバルの運指を覚えるスケール練習フレーズ

Cメジャースケールを6度音程で弾く練習フレーズのタブ譜です。



|-------------------------------5-|---7---8---10---12-
|-------------------5---6---8-----|-----5---6----8----
|-----------5---7-------------5---|-7-----------------
|---7---9---------5---7---9-------|-------------------
|-----5---7---8-------------------|-------------------
|-8-------------------------------|-------------------


----13----15-8---7---|-5--------------------------------|
-10----12------5-----|-----8---6---5--------------------|
-------------------7-|---5--------------7---5-----------|
--5------------------|-------9---7---5----------9---7---|
---------------------|--------------------8---7---5-----|
---------------------|--------------------------------8-|


-----------------|
-----------------|
-----------------|
-5---------------|
-----8---7---5---|
---7---5---3---1-|


6度音程の上昇と下降が逆になったパターンも紹介します。



|-----------------------------5---|-7---8---10---12---
|-----------------5---6---8-------|-------5----6----8-
|---------5---7-----------------5-|---7---------------
|-7---9-------------5---7---9-----|-------------------
|-------5---7---8-----------------|-------------------
|---8-----------------------------|-------------------


-13----15------8---7-|---5-----------------------------|
----10----12-5-------|-------8---6---5-----------------|
-----------------7---|-5-----------------7---5---------|
---------------------|-----9---7---5-------------9---7-|
---------------------|-----------------8---7---5-------|
---------------------|-----------------------------8---|


-----------------|
-----------------|
-----------------|
---5-------------|
-------8---7---5-|
-7---5---3---1---|


メトロノームを鳴らすことを忘れずに


ハーモニックマイナースケールやメロディックマイナースケール等、他のスケールでも練習してみましょう。


機会が在ったらそちらのフレーズも紹介したいと思います。