4度音程のスケール練習 メジャースケール | ギター初心者上達委員会

4度音程のスケール練習法

メジャースケールを使用した。4度音程のインターバルを弾くスケール練習フレーズです。


ギターでの4度音程の指使いと、完全4度と増4度による運指の違いを覚えましょう。


4度のインターバルを弾く練習法を行うことでギター以外に音程を聴き取る耳も上達します。

4度インターバルの運指を覚えるスケール練習フレーズ

Cメジャースケールを4度音程で弾く練習フレーズのタブ譜です。



|---------------------------------|-------5---7---8-
|-------------------------------6-|---8-5---6---8---
|-------------------5---7---9-5---|-7---------------
|-------5---7---9-5---7---9-------|-----------------
|---8-5---7---8-------------------|-----------------
|-8-------------------------------|-----------------


-5-10-7-12-8---7---|-5-------------------------------|
-------------8---6-|---5-8---6---5-------------------|
-------------------|-------7---5-----7---5-----------|
-------------------|---------------9---7---5-9---7---|
-------------------|---------------------------8---7-|
-------------------|---------------------------------|


--------------------|
--------------------|
--------------------|
--------------------|
-5------------------|
---5-8---7---5------|
-------8---7----5-8-|


4度音程の上昇と下降が逆になったパターンも紹介します。




|---------------------------------|-----5---7---8---
|-------------------------5---6---|-8-----5---6---8-
|-----------------5---7---------5-|---7-------------
|-----5---7---9-----5---7---9-----|-----------------
|-8-----5---7---8-----------------|-----------------
|---8-----------------------------|-----------------


-10-5-12-7---8---7-|---5-----------------------------|
-----------8---6---|-5-----8---6---5-----------------|
-------------------|-----7---5---------7---5---------|
-------------------|-------------9---7---5-----9---7-|
-------------------|-------------------------8---7---|
-------------------|---------------------------------|


-----------------|
-----------------|
-----------------|
---5-------------|
-5-----8---7---5-|
-----8---7---5---|


メトロノームを鳴らすことを忘れずに


ハーモニックマイナースケールやメロディックマイナースケール等、他のスケールでも練習してみましょう。


機会が在ったらそちらのフレーズも紹介したいと思います。