4音シークエンス(シーケンス)フレーズ | ギター初心者上達委員会

4音シークエンス(シーケンス)とは

シークエンス(シーケンス)とは、反復進行を意味し、スケールにおけるシーケンスとはスケール構成音を同じ音数で順番に弾いていくことです。


Cメジャースケールの4音シークエンス(シーケンス)だったらドレミファ、レミファソ、ミファソラというようになります。

4音シークエンス(シーケンス)の練習フレーズ

以下はGメジャースケールを使用した4音シークエンス(シーケンス)フレーズの練習楽譜です。



ボックスポジションによる4音シークエンス(シーケンス)

|---------------------------------|-----------------
|---------------------------------|-----------------
|---------------------------------|---------------2-
|-----------------------2-----2-4-|---2-4-5-2-4-5---
|-----2-3---2-3-5-2-3-5---3-5-----|-5---------------
|-3-5-----5-----------------------|-----------------

-----------------|-----------------------2-----2-3-|
-----------------|-------3-----3-5---3-5---3-5-----|
-----2-4---2-4-5-|-2-4-5---4-5-----5---------------|
-4-5-----5-------|---------------------------------|
-----------------|---------------------------------|
-----------------|---------------------------------|

-3-2-----2------------------------|-----------------
-----5-3---5-3----5-3-----3-------|-----------------
----------------5-----5-4---5-4-2-|-5-4-2---4-2-----
----------------------------------|-------5-----5-3
----------------------------------|-----------------
----------------------------------|-----------------

-----------------|---------------------------------|
-----------------|---------------------------------|
-2---------------|---------------------------------|
---5-3-2-5-3-2---|-3-2-----2-----------------------|
---------------5-|-----5-3---5-3-2-5-3-2---3-2-----|
-----------------|-----------------------5-----5-3-|


リニアポジションによる4音シークエンス(シーケンス)

|---------------------------------|-----------------
|---------------------------------|-----------------
|---------------------------------|-----------------
|-------------------------------4-|-----4-5---4-5-7-
|-------3-----3-5---3-5-7-3-5-7---|-5-7-----7-------
|-3-5-7---5-7-----7---------------|-----------------

-----------------|---------------------------------|
-----------------|---------------5-----5-7---5-7-8-|
-------4-----4-5-|---4-5-7-4-5-7---5-7-----7-------|
-4-5-7---5-7-----|-7-------------------------------|
-----------------|---------------------------------|
-----------------|---------------------------------|

-------5-----5-7---5-7-8-5-7-8-10-|-10-8-7----8-7------|
-5-7-8---7-8-----8----------------|--------10-----10-8-|
----------------------------------|--------------------|
----------------------------------|--------------------|
----------------------------------|--------------------|
----------------------------------|--------------------|

-7---------------------------------|-----------------
---10-8-7-10-8-7---8-7-----7-------|-----------------
-----------------9-----9-7---9-7-5-|-9-7-5---7-5-----
-----------------------------------|-------9-----9-7-
-----------------------------------|-----------------
-----------------------------------|-----------------

----------------------------------|-----------------
----------------------------------|-----------------
-5--------------------------------|-----------------
---9-7-5-9-7-5----7-5-----5-------|-----------------
---------------9------9-7---9-7-5-|-9-7-5---7-5-----
----------------------------------|-------8-----8-7-

-----------------|
-----------------|
-----------------|
-----------------|
-5---------------|
---8-7-5-8-7-5-3-|


シークエンス(シーケンス)フレーズは運指を覚えるためなので、色々なスケールを使用して練習しましょう。


特に3種類のマイナースケールを覚えておくと後々役に立ちます。