クリックの鳴る位置を変えてリズム練習 | ギター初心者上達委員会

クリックの鳴る位置を変えるリズム練習

16分音符の頭や16分音符の裏拍、3連符の頭や3連符の3拍目にクリックを合わせてリズムを取る練習を紹介しましたが


同じように16分音符の2拍目、4拍目や、3連符の2拍目にクリックを鳴らして練習してみましょう。


これらをやる事で、音符と音符の間隔が正確(均一)になり、音の位置が正確になる事でリズムがさらに安定してきます。

リズムトレーニングの練習例

メトロノームを16分の2拍目で鳴らした場合



   ○      ○      ○      ○
|                           |
|● ● ● ●|● ● ● ●|● ● ● ●|● ● ● ●|
|                           |


上記は1小節を表しています。(4小節ではありません。)

『●』は16部音符を表しています。

『○』はメトロノームのクリックが鳴る位置です。

縦線『|』は一拍を表しています。

練習時に弾くフレーズは、スケールでもカッティングでもかまいません。

Aメジャースケールを利用したリズム練習



|   ・       ・       ・       ・     | ・       ・

|---------------------------4-5-7-|-5-4-------------
|-----------------------5-7-------|-----7-5---------
|-----------------4-6-7-----------|---------7-6-4---
|-----------4-6-7-----------------|---------------7-
|-----4-5-7-----------------------|-----------------
|-5-6-----------------------------|-----------------


   ・       ・     |

-----------------|
-----------------|
-----------------|
-6-4-------------|
-----7-5-4-------|
-----------6-5-4-|


E7のカッティングによるリズム練習



|   ・       ・       ・       ・     |

|---------------------------------|
|-7---x-x-7-x-x-7---7-x-x-7-x-x-x-|
|-7---x-x-7-x-x-7---7-x-x-7-x-x-x-|
|-6---x-x-6-x-x-6---6-x-x-6-x-x-x-|
|-7---x-x-7-x-x-7---7-x-x-7-x-x-x-|
|---------------------------------|


『x』はブラッシング音です。

タブ譜の上にある『・』で、メトロノームのクリック音が鳴るようにリズムをキープします。

メトロノームを16分の4拍目で鳴らした場合



      ○      ○      ○      ○
|                           |
|● ● ● ●|● ● ● ●|● ● ● ●|● ● ● ●|
|                           |

クリック音の位置が4拍目になっています。

Aメジャースケールを利用したリズム練習



|       ・       ・       ・       ・ | ・       ・

|---------------------------4-5-7-|-5-4-------------
|-----------------------5-7-------|-----7-5---------
|-----------------4-6-7-----------|---------7-6-4---
|-----------4-6-7-----------------|---------------7-
|-----4-5-7-----------------------|-----------------
|-5-6-----------------------------|-----------------


       ・       ・ |

-----------------|
-----------------|
-----------------|
-6-4-------------|
-----7-5-4-------|
-----------6-5-4-|


E7のカッティングによるリズム練習



|       ・       ・       ・       ・ |

|---------------------------------|
|-7---x-x-7-x-x-7---7-x-x-7-x-x-x-|
|-7---x-x-7-x-x-7---7-x-x-7-x-x-x-|
|-6---x-x-6-x-x-6---6-x-x-6-x-x-x-|
|-7---x-x-7-x-x-7---7-x-x-7-x-x-x-|
|---------------------------------|


メトロノームのクリック音を3連符の真ん中に合わせた場合



   ○    ○    ○    ○
|                     |
|● ● ●|● ● ●|● ● ●|● ● ●|
|                     |

『●』は3連符を表しています。他は同様です。


Aメジャースケールを利用したリズム練習



|   ・     ・     ・     ・   |   ・     ・     ・     ・   |

|-------------------------|---4-5-7-5-4-------------|
|-----------------------5-|-7-----------7-5---------|
|-----------------4-6-7---|-----------------7-6-4---|
|-----------4-6-7---------|-----------------------7-|
|-----4-5-7---------------|-------------------------|
|-5-6---------------------|-------------------------|


   ・     ・     ・     ・   |

-------------------------|〜
-------------------------|
-------------------------|〜
-6-4---------------------|
-----7-5-4-----------4-5-|〜
-----------6-5-4-5-6-----|


E7のカッティングによるリズム練習



|   ・     ・     ・     ・   |

|-------------------------|
|-7-x-x-7-x-x-x-7-x-7-x-x-|
|-7-x-x-7-x-x-x-7-x-7-x-x-|
|-6-x-x-6-x-x-x-6-x-6-x-x-|
|-7-x-x-7-x-x-x-7-x-7-x-x-|
|-------------------------|


3連符の2拍目にクリック音が鳴るようにしてリズムキープします。

馴れないと結構難しくないですか?

練習フレーズは、当サイトのギター練習フレーズも参考にして下さい。


ギターの上達に役立つフレーズ例も紹介しています。