クリックの位置を変化させる応用リズム練習方法 | ギター初心者上達委員会

クリックの位置をずらす応用リズム練習方法

メトロノームのクリック音を1拍目→3拍目→3拍目→4拍目とずらしていくフレーズです。


編拍子が入るので戸惑うかもしれませんが、しっかりとドレミを歌いながらフレーズとクリックの位置を意識して練習してください。

クリックの位置をずらす応用リズム練習例

メトロノームは16分音符の頭で鳴らします。


以下はAメジャースケールの練習フレーズ例です。



| ・       ・       ・       ・       | ・       ・

|---------------------------4-5-7-|-5-4-------------
|-----------------------5-7-------|-----7-5---------
|-----------------4-6-7-----------|---------7-6-4---
|-----------4-6-7-----------------|---------------7-
|-----4-5-7-----------------------|-----------------
|-5-6-----------------------------|-----------------


 ・       ・       | ・   |     ・       ・       ・

-----------------|-----|-------------------------
-----------------|-----|-----------------------5-
-----------------|-----|-----------------4-6-7---
-6-4-------------|-----|-----------4-6-7---------
-----7-5-4-------|-----|-----4-5-7---------------
-----------7-5-4-|-5-4-|-5-6---------------------


  ・  |     ・       ・       ・       ・   |

--4-5-7-|-5-4-----------------------------|---|
7-------|-----7-5-------------------------|---|
--------|---------7-6-4-------------------|---|
--------|---------------7-6-4-------------|---|
--------|---------------------7-5-4-------|---|
--------|---------------------------7-5-4-|-5-|


    ・       ・       ・       ・     |   ・       ・

|---------------------------4-5-7-|-5-4-------------
|-----------------------5-7-------|-----7-5---------
|-----------------4-6-7-----------|---------7-6-4---
|-----------4-6-7-----------------|---------------7-
|-----4-5-7-----------------------|-----------------
|-5-6-----------------------------|-----------------


   ・       ・     |   ・ |       ・       ・       ・

-----------------|-----|-------------------------
-----------------|-----|-----------------------5-
-----------------|-----|-----------------4-6-7---
-6-4-------------|-----|-----------4-6-7---------
-----7-5-4-------|-----|-----4-5-7---------------
-----------7-5-4-|-5-4-|-5-6---------------------


    ・ |       ・       ・       ・       ・ |

--4-5-7-|-5-4-----------------------------|-------|
7-------|-----7-5-------------------------|-------|
--------|---------7-6-4-------------------|-------|
--------|---------------7-6-4-------------|-------|
--------|---------------------7-5-4-------|-------|
--------|---------------------------7-5-4-|-5-7-5-|

タブ譜の上にある『・』で、メトロノームのクリック音が鳴るようにリズムをキープします。

練習フレーズは、当サイトのギター練習フレーズも参考にして下さい。


ギターの上達に役立つフレーズ例も紹介しています。


編拍子でメトロノームのクリック音の位置をずらしているので、違和感を感じるかもしれませんが、メロディーに対してアクセントがずれていく事を意識しながら弾いてみて下さい。