2拍3連のリズム練習 | ギター初心者上達委員会

2拍3連のリズム練習

2拍3連は、3連符2つ分を1音として捕らえたリズムの事です。


非常にリズムが取りづらいので、しっかり練習してください。

2拍3連のリズムトレーニング練習例

2拍3連のリズム練習譜です。通常の3連符との違いをしっかりと認識してください。



通常の3連符

  ┌3┐ ┌3┐ ┌3┐ ┌3┐   ┌3┐ ┌3┐ ┌3┐ ┌3┐
|-------------------------|-------------------------|
|---------------------4-5-|-7-5-4-------------------|
|-----------------5-7-----|-------7-5---------------|
|-----------4-6-7---------|-----------7-6-4---------|
|-----4-5-7---------------|-----------------7-5-4---|
|-5-7---------------------|-----------------------7-|

2拍3連

 ┌  3  ┐┌  3  ┐ ┌  3  ┐┌  3  ┐
|-------------------------|-------------------------|
|-------------------------|-----------------4- -5- -|
|-------------------------|---------5- -7- ---------|
|---------------------5- -|-6- -7- -----------------|
|---------4- -5- -7- -----|-------------------------|
|-5- -7- -----------------|-------------------------|

 ┌  3  ┐┌  3  ┐ ┌  3  ┐┌  3  ┐
|-------------------------|-------------------------|
|-7- -5- -4- -------------|-------------------------|
|-------------7- -5- -----|-------------------------|
|---------------------7- -|-6- -4- -----------------|
|-------------------------|---------7- -5- -4- -----|
|-------------------------|---------------------7- -|


上記の通常の3連符と2拍3連のフレーズをメトロノームに合わせて交互に弾くと良い練習になります。


リズムは常に3連を感じながらオルタネイトピッキングで弾き、2拍3連の部分は全てダウンピッキングで弾きます。


アップピッキングを空振りさせるように弾くとリズムが取りやすいと思います。


2拍3連の譜面の空白は、音を伸ばす部分(アップピッキングによる空ピック)を表しています。3連符2拍分の長さであるということがわかりますでしょうか?


フレーズはAメジャースケールを使用しています。


色々なフレーズを2拍3連にして弾いてみてください。


休符や違う長さの音符を混ぜて弾くとさらにリズムが複雑になり練習にもなります。