頭でリズムを取る | ギター初心者上達委員会

リズムを頭で取る練習

まずはリズムを取るときの基本、頭(一拍目)でリズムを取る練習をしましょう。


フレーズやリズムパターンの練習時に、フレーズの頭でメトロノームが鳴るようにします。


頭が取れないようでは、リズムを見失いボロボロになりますので、馬鹿にせずまずは頭でメトロノームを鳴らしてリズムを取る練習をしましょう。

リズムトレーニングの練習例

メトロノームを頭で鳴らした場合の練習例です。



 ○      ○      ○      ○
|                           |
|● ● ● ●|● ● ● ●|● ● ● ●|● ● ● ●|
|                           |


上記は1小節を表しています。(4小節ではありません。)

『●』は16部音符を表しています。

『○』はメトロノームのクリックが鳴る位置です。

縦線『|』は一拍を表しています。

練習時に弾くフレーズは、スケールでもカッティングでもかまいません。

以下はAメジャースケールを利用したリズム練習です。



| ・       ・       ・       ・       | ・       ・

|---------------------------4-5-7-|-5-4-------------
|-----------------------5-7-------|-----7-5---------
|-----------------4-6-7-----------|---------7-6-4---
|-----------4-6-7-----------------|---------------7-
|-----4-5-7-----------------------|-----------------
|-5-6-----------------------------|-----------------


 ・       ・       |

-----------------|
-----------------|
-----------------|
-6-4-------------|
-----7-5-4-------|
-----------7-5-4-|


続いて、E7のカッティングによるリズム練習例です。



| ・       ・       ・       ・       |

|---------------------------------|
|-7---x-x-7-x-x-7---7-x-x-7-x-x-x-|
|-7---x-x-7-x-x-7---7-x-x-7-x-x-x-|
|-6---x-x-6-x-x-6---6-x-x-6-x-x-x-|
|-7---x-x-7-x-x-7---7-x-x-7-x-x-x-|
|---------------------------------|


『x』はブラッシング音です。

タブ譜の上にある『・』で、メトロノームのクリック音が鳴るようにリズムをキープします。


練習フレーズは、当サイトのギター練習フレーズも参考にして下さい。


ギターの上達に役立つフレーズ例を紹介しています。