コードチェンジ・複数指の運指練習方法 | ギター初心者上達委員会

コードチェンジ・複数指の運指

ギターの花形と言えばギターソロと思っている方もいると思いますが、ギターは本来伴奏を行う楽器です。


複雑なコードチェンジや難しいコードフォームも、すばやく正確に押さえることができなければ演奏が安定しません。


ここでは、複雑なコードフォームや運指に対応するための基礎練習方法を紹介します。


複数の指を無駄なく同時に動かすための練習方法で、フィンガリングの技術を高める事もできます。

コードチェンジ・複数指の運指練習フレーズ

以下はコードチェンジ・複数指の運指練習に最適なフレーズです。



運指パターン1

人差し指と中指・薬指と小指を組み合わせたフィンガリング

|-1----2----2----1----|-1----2----2----2----|
|-2----1----1----2----|-2----1----1----1----|
|-3----3----4----4----|-3----3----4----3----|
|-4----4----3----3----|-4----4----3----4----|
|---------------------|---------------------|
|---------------------|---------------------|


運指パターン2

人差し指と薬指・中指と小指を組み合わせたフィンガリング

|-1----3----3----1----|-1----3----3----1----|
|-2----2----4----4----|-2----2----4----4----|
|-3----1----1----3----|-3----1----1----3----|
|-4----4----2----2----|-4----4----2----2----|
|---------------------|---------------------|
|---------------------|---------------------|


運指パターン3

人差し指と小指・中指と薬指を組み合わせたフィンガリング

|-1----4----4----1----|-1----4----4----1----|
|-2----2----3----3----|-2----2----3----3----|
|-3----3----2----2----|-3----3----2----2----|
|-4----1----1----4----|-4----1----1----4----|
|---------------------|---------------------|
|---------------------|---------------------|


必ずメトロノームを使って、音は出来るだけ長く(コードチェンジするぎりぎりまで)伸ばします。


動かす指以外は、指板から離さないようにしましょう。


動かす指は、出来るだけ同時に指板から離し、かつ同時に押弦します。


出来るだけ無駄な動きを無くすように心がけましょう。


これがスムーズに弾けるようになれば、体外のコードはスムーズに押さえられるようになるでしょう。