弦移動を練習するクロマチック縦移動フレーズ | ギター初心者上達委員会

弦移動クロマチック練習方法

クロマチックで弦移動を鍛えるフィンガリング基礎練習フレーズです。


ギターの初心者向け

弦移動練習フレーズ譜面

弦移動練習のタブ譜(tab譜)です。



|---------------------------------|----------1-2-3-4-
|---------------------------------|-1-2-3-4----------
|-------------------------1-2-3-4-|------------------
|-----------------1-2-3-4---------|------------------
|---------1-2-3-4-----------------|------------------
|-1-2-3-4-------------------------|------------------


-2-3-4-5---------|---------------------------------|
---------2-3-4-5-|---------------------------------|
-----------------|-2-3-4-5-------------------------|
-----------------|---------2-3-4-5-----------------|
-----------------|-----------------2-3-4-5---------|
-----------------|-------------------------2-3-4-5-|

メトロノームを使用して、ピッキングの粒を揃えるように練習しましょう。


1弦〜6弦まで移動したら、1フレットづつ横に移動し、人差し指が17フレットまでいったらまた戻ってきます。