リニア移動を練習するクロマチック斜め移動フレーズ | ギター初心者上達委員会

リニア移動クロマチック練習方法

クロマチックで斜め移動を鍛えるフィンガリング基礎練習フレーズです。


ギターの初心者向け

リニア移動練習フレーズ譜面

リニア移動練習のタブ譜(tab譜)です。



|---------------------------------|---------6-7-8-9-
|---------------------------------|-5-6-7-8---------
|-------------------------4-5-6-7-|-----------------
|-----------------3-4-5-6---------|-----------------
|---------2-3-4-5-----------------|-----------------
|-1-2-3-4-------------------------|-----------------


--------------------|-------------------------------
-7-8-9-10-----------|-------------------------------
----------8-9-10-11-|-------------------------------
--------------------|-9-10-11-12--------------------
--------------------|------------8-9-10-11----------
--------------------|----------------------7-8-9-10-


---------|-------------------------2-3-4-5-|
---------|-----------------3-4-5-6---------|
---------|---------4-5-6-7-----------------|
---------|-5-6-7-8-------------------------|
-6-7-8-9-|---------------------------------|
---------|---------------------------------|

メトロノームを使用して、ピッキングの粒を揃えるように練習しましょう。


弦とフレットを同じパターンで1つずつ移動していくフレーズです。