フレット移動を練習するクロマチック横移動フレーズ | ギター初心者上達委員会

フレット移動クロマチック練習方法

クロマチックでフレット移動を鍛えるフィンガリング基礎練習フレーズです。


ギターの初心者向け

フレット移動練習フレーズ譜面

フレット移動練習のタブ譜(tab譜)です。



|---------------------------------|-----------------
|---------------------------------|-----------------
|---------------------------------|-----------------
|---------------------------------|-----------------
|---------------------------------|-----------------
|-1-2-3-4-2-3-4-5-3-4-5-6-4-5-6-7-|-5-6-7-8-6-7-8-9-


--------------------|---------------------------------
--------------------|---------------------------------
--------------------|---------------------------------
--------------------|---------------------------------
--------------------|------------9-10-11-12-8-9-10-11-
-7-8-9-10-8-9-10-11-|-9-10-11-12----------------------


----------|---------------------------------|
----------|---------------------------------|
----------|---------------------------------|
----------|---------------------------------|
-7-8-9-10-|-6-7-8-9-5-6-7-8-4-5-6-7-3-4-5-6-|
----------|---------------------------------|


メトロノームを使用して、ピッキングの粒を揃えるように練習しましょう。


12フレットまで移動したら、弦を移動してまた戻ってきます。