ディミニッシュセブンス コード分解アルペジオ | ギター初心者上達委員会

ディミニッシュセブンス コード分解アルペジオ練習フレーズ

ディミニッシュセブンスコードのアルペジオです。


ギター指板上のポジションと練習フレーズは以下の通りです。


6弦ルートでも5弦ルートでも4弦ルートでもルートから見た構成音は変わりますが、指板上での運指は変わりません。


ディミニッシュセブンスアルペジオの指板上のポジションです。


R=ルート 3=m3rd 5=♭5th 7=m7th


6弦ルート

|---|---|---|---|-3-|---|---|-5-|---|
|---|---|---|---|---|---|-R-|---|---|
|---|---|---|---|-5-|---|---|-7-|---|
|---|---|---|-R-|---|---|-3-|---|---|
|---|---|-5-|---|---|-7-|---|---|---|
|---|-R-|---|---|-3-|---|---|---|---|


5弦ルート

|---|---|---|---|-7-|---|---|-R-|---|
|---|---|---|---|---|---|-5-|---|---|
|---|---|---|---|-R-|---|---|-3-|---|
|---|---|---|-5-|---|---|-7-|---|---|
|---|---|-R-|---|---|-3-|---|---|---|
|---|---|---|---|---|---|---|---|---|


Cディミニッシュセブンスアルペジオ



6弦ルート

|------------------------------------------------|
|-----------------------13-----------------------|
|-----------------11-14----14-11-----------------|
|-----------10-13----------------13-10-----------|
|------9-12----------------------------12-9------|
|-8-11--------------------------------------11-8-|


5弦ルート

|---------------5-8-5---------------|
|-------------7-------7-------------|
|---------5-8-----------8-5---------|
|-----4-7-------------------7-4-----|
|-3-6---------------------------6-3-|
|-----------------------------------|



ディミニッシュセブンスコードアルペジオは、コードの構成音とギターのフレット毎の音程の関係上、どの弦をルートにしても運指パターンが全く同じです。


人差し指と小指のみの運指を多用するため、初心者のうちは運指とミュートに苦労するかもしれません。


必ず、弾いている音がコード構成音の何度の音なのかを確認し、指板上のポジションと音程の響きを覚える事を意識しながら練習しましょう。


また、慣れてきたら弾いている音程を口に出し、歌いながら練習すると効果的です。


スウィープではありませんので、オルタネイトピッキングで演奏します。


全てのルート音のディミニッシュセブンスコードで、ギターで即座に弾けるように練習しましょう。