同一フォームで弾くメロディックマイナー系のジャズ的なアルペジオ | ギター初心者上達委員会

同一フォームで弾くメロディックマイナー系のジャズ的なアルペジオ

ギターが上達してくると、コードに対してスケールを使い分けるジャズ的なフレーズも弾きたくなると思いますが、これも初心者がつまずきやすい部分です。


そこで、ジャズに多用されるメロディックマイナー系のスケールを使用した同一フォームを動かすだけで弾く事の出来るジャジィなアルペジオポジションを紹介します。


Tmに対して使用するメロディックマイナースケール、X7に対して使用するオルタードスケールとリディアンフラット7thスケール、Um7♭5に対して使用するロクリアンシャープ2ndスケール使用時に、全て同一フォームで弾く事ができます。

メロディックマイナー系のジャズ的なアルペジオポジション

メロディックマイナー系のジャジィなアルペジオで使用する指板上のポジションは以下の通りです。



|-●-|----|----|----|----|
|----|-●-|----|----|----|
|----|-●-|----|----|----|
|----|----|-●-|----|----|
|----|----|----|-●-|----|
|----|----|----|----|-●-|


これを、各スケールに当てはめると、ルートの位置とコードに対するテンションは以下のようになります。


3音のアルペジオになりますが、どの音から始めても同一フォームで弾く事が出来ますので、1つのフレーズを4フレットずつ動かす事で3パターンのアルペジオを弾く事が出来ます。



メロディックマイナースケール(TmM7)

|---|-5-|---|---|---|---|---|
|---|---|-3-|---|---|---|---|
|---|---|-7-|-R-|---|---|---|
|---|---|---|-5-|---|---|---|
|---|-R-|---|---|-3-|---|---|
|---|---|---|---|---|-7-|---|

|---|-7-|-R-|---|---|---|---|
|---|---|-5-|---|---|---|---|
|---|---|-3-|---|---|---|---|
|---|---|---|-7-|-R-|---|---|
|---|---|---|---|-5-|---|---|
|---|---|-R-|---|---|-3-|---|

|---|-3-|---|---|---|---|---|
|---|---|-7-|-R-|---|---|---|
|---|---|-5-|---|---|---|---|
|---|-R-|---|-3-|---|---|---|
|---|---|---|---|-7-|-R-|---|
|---|---|---|---|---|-5-|---|

メジャー7th・マイナー3rd・5thのアルペジオです。


オルタードスケール(X7)

|---|-R-|---|---|---|---|---|
|---|---|♭6|---|---|---|---|
|---|---|-3-|---|---|---|---|
|---|---|---|-R-|---|---|---|
|---|---|---|---|♭6|---|---|
|---|-R-|---|---|---|-3-|---|

|---|-3-|---|---|---|---|---|
|---|---|-R-|---|---|---|---|
|---|---|♭6|---|---|---|---|
|-R-|---|---|-3-|---|---|---|
|---|---|---|---|-R-|---|---|
|---|---|---|---|---|♭6|---|

|---|♭6|---|---|---|-R-|---|
|---|---|-3-|---|---|---|---|
|---|---|-R-|---|---|---|---|
|---|---|---|♭6|---|---|---|
|-R-|---|---|---|-3-|---|---|
|---|---|---|---|---|-R-|---|

メジャー3rd・♭13th・ルートのアルペジオです。


リディアンフラット7thスケール(X7)

|---|#11|---|---|---|---|---|
|---|---|-9-|---|---|---|---|
|---|---|-7-|---|-R-|---|---|
|---|---|---|#11|---|---|---|
|---|---|-R-|---|-9-|---|---|
|---|---|---|---|---|-7-|---|

|---|-7-|---|-R-|---|---|---|
|---|---|#11|---|---|---|---|
|-R-|---|-9-|---|---|---|---|
|---|---|---|-7-|---|-R-|---|
|---|---|---|---|#11|---|---|
|---|---|---|-R-|---|-9-|---|

|---|-9-|---|---|---|---|---|
|---|---|-7-|---|-R-|---|---|
|---|---|#11|---|---|---|---|
|---|-R-|---|-9-|---|---|---|
|---|---|---|---|-7-|---|---|
|---|---|---|---|---|#11|---|

マイナー7th・9th・#11thのアルペジオです。


ロクリアン#2nd(Um7♭5)

|---|♭5|---|---|---|---|---|
|-R-|---|-9-|---|---|---|---|
|---|---|-7-|---|-R-|---|---|
|---|---|---|♭5|---|---|---|
|---|---|-R-|---|-9-|---|---|
|---|---|---|---|---|-7-|---|

|---|-7-|---|-R-|---|---|---|
|---|---|♭5|---|---|---|---|
|-R-|---|-9-|---|---|---|---|
|---|---|---|-7-|---|---|---|
|---|---|---|---|♭5|---|---|
|---|---|---|-R-|---|-9-|---|

|---|-9-|---|---|---|---|---|
|---|---|-7-|---|-R-|---|---|
|---|---|♭5|---|---|---|---|
|---|-R-|---|-9-|---|---|---|
|---|---|---|---|-7-|---|---|
|---|---|---|---|---|♭5|---|

マイナー7th・9th・♭5thのアルペジオです。



このルートの位置と、斜めのアルペジオラインを覚えておくだけで、ジャズっぽいフレーズが弾けますので覚えておきましょう。


ポジションを動かせば同一フォームで3パターン弾けますので、前後の音の兼ね合いによって使い分けましょう。